ISO-10303-21;
HEADER;
FILE_DESCRIPTION (( 'STEP AP203' ),
    '1' );
FILE_NAME ('End Cap SDR11_001 117 0140 0050.step',
    '2019-12-16T11:41:08',
    ( '' ),
    ( '' ),
    'SwSTEP 2.0',
    'SolidWorks 2019',
    '' );
FILE_SCHEMA (( 'CONFIG_CONTROL_DESIGN' ));
ENDSEC;

DATA;
#1 = SHAPE_DEFINITION_REPRESENTATION ( #93, #299 ) ;
#2 = DIRECTION ( 'NONE',  ( -0.0000000000000000000, -1.000000000000000000, -0.0000000000000000000 ) ) ;
#3 = ORIENTED_EDGE ( 'NONE', *, *, #157, .F. ) ;
#4 = DIRECTION ( 'NONE',  ( 0.0000000000000000000, 0.0000000000000000000, -1.000000000000000000 ) ) ;
#5 = ORIENTED_EDGE ( 'NONE', *, *, #183, .F. ) ;
#6 = ORIENTED_EDGE ( 'NONE', *, *, #296, .T. ) ;
#7 = CARTESIAN_POINT ( 'NONE',  ( 0.0000000000000000000, 0.0000000000000000000, 0.0000000000000000000 ) ) ;
#8 = ORIENTED_EDGE ( 'NONE', *, *, #139, .T. ) ;
#9 = CARTESIAN_POINT ( 'NONE',  ( 0.0000000000000000000, 58.28642954988625746, 0.0000000000000000000 ) ) ;
#10 = VERTEX_POINT ( 'NONE', #199 ) ;
#11 = PRODUCT_DEFINITION_FORMATION_WITH_SPECIFIED_SOURCE ( 'HERHANGÝ', '', #162, .NOT_KNOWN. ) ;
#12 = DIRECTION ( 'NONE',  ( 0.0000000000000000000, 0.0000000000000000000, 1.000000000000000000 ) ) ;
#13 = VERTEX_POINT ( 'NONE', #289 ) ;
#14 = ADVANCED_FACE ( 'NONE', ( #81 ), #174, .F. ) ;
#15 = DIRECTION ( 'NONE',  ( -1.000000000000000000, 0.0000000000000000000, 0.0000000000000000000 ) ) ;
#16 = VERTEX_POINT ( 'NONE', #245 ) ;
#17 = CARTESIAN_POINT ( 'NONE',  ( -1.072617867520427186E-16, -12.10845608299144693, -0.8758589564495048441 ) ) ;
#18 = EDGE_CURVE ( 'NONE', #221, #242, #125, .T. ) ;
#19 = TOROIDAL_SURFACE ( 'NONE', #194, -0.8758589564495048441, 75.00000000000000000 ) ;
#20 = ORIENTED_EDGE ( 'NONE', *, *, #130, .F. ) ;
#21 = AXIS2_PLACEMENT_3D ( 'NONE', #270, #61, #152 ) ;
#22 = ORIENTED_EDGE ( 'NONE', *, *, #296, .F. ) ;
#23 = ORIENTED_EDGE ( 'NONE', *, *, #53, .T. ) ;
#24 = ORIENTED_EDGE ( 'NONE', *, *, #183, .T. ) ;
#25 = COORDINATED_UNIVERSAL_TIME_OFFSET ( 3, 0, .AHEAD. ) ;
#26 = ORIENTED_EDGE ( 'NONE', *, *, #29, .T. ) ;
#27 = ORIENTED_EDGE ( 'NONE', *, *, #94, .T. ) ;
#28 = PERSON_AND_ORGANIZATION ( #59, #71 ) ;
#29 = EDGE_CURVE ( 'NONE', #100, #242, #42, .T. ) ;
#30 = EDGE_LOOP ( 'NONE', ( #97, #193, #144, #240 ) ) ;
#31 = CALENDAR_DATE ( 2019, 16, 12 ) ;
#32 = PLANE ( 'NONE',  #253 ) ;
#33 = EDGE_LOOP ( 'NONE', ( #169, #261, #52, #304 ) ) ;
#34 = DIRECTION ( 'NONE',  ( -0.0000000000000000000, -1.000000000000000000, -0.0000000000000000000 ) ) ;
#35 = VERTEX_POINT ( 'NONE', #83 ) ;
#36 = AXIS2_PLACEMENT_3D ( 'NONE', #9, #110, #206 ) ;
#37 = CARTESIAN_POINT ( 'NONE',  ( 0.0000000000000000000, 0.0000000000000000000, -25.00000000000000000 ) ) ;
#38 = EDGE_LOOP ( 'NONE', ( #284, #76 ) ) ;
#39 = CARTESIAN_POINT ( 'NONE',  ( 0.0000000000000000000, 58.28642954988625746, 0.0000000000000000000 ) ) ;
#40 = EDGE_CURVE ( 'NONE', #13, #100, #177, .T. ) ;
#41 = DIRECTION ( 'NONE',  ( 0.0000000000000000000, 0.0000000000000000000, -1.000000000000000000 ) ) ;
#42 = CIRCLE ( 'NONE', #212, 25.00000000000000000 ) ;
#43 = CC_DESIGN_SECURITY_CLASSIFICATION ( #95, ( #11 ) ) ;
#44 = CARTESIAN_POINT ( 'NONE',  ( 0.0000000000000000000, -12.10845608299144693, 0.0000000000000000000 ) ) ;
#45 = DIRECTION ( 'NONE',  ( 1.000000000000000000, 0.0000000000000000000, -1.224646799147353207E-16 ) ) ;
#46 = AXIS2_PLACEMENT_3D ( 'NONE', #255, #45, #136 ) ;
#47 = ADVANCED_FACE ( 'NONE', ( #151, #246 ), #32, .T. ) ;
#48 = DIRECTION ( 'NONE',  ( 1.000000000000000000, 0.0000000000000000000, 0.0000000000000000000 ) ) ;
#49 = AXIS2_PLACEMENT_3D ( 'NONE', #7, #109, #204 ) ;
#50 = ORIENTED_EDGE ( 'NONE', *, *, #29, .F. ) ;
#51 = APPROVAL_DATE_TIME ( #260, #207 ) ;
#52 = ORIENTED_EDGE ( 'NONE', *, *, #40, .T. ) ;
#53 = EDGE_CURVE ( 'NONE', #35, #263, #106, .T. ) ;
#54 = APPROVAL_DATE_TIME ( #262, #228 ) ;
#55 = EDGE_LOOP ( 'NONE', ( #22, #24, #27 ) ) ;
#56 = APPROVAL_STATUS ( 'not_yet_approved' ) ;
#57 = DIRECTION ( 'NONE',  ( -0.0000000000000000000, -1.000000000000000000, -0.0000000000000000000 ) ) ;
#58 = LOCAL_TIME ( 14, 41, 8.000000000000000000, #78 ) ;
#59 = PERSON ( 'BELÝRTÝLMEMÝÞ', 'BELÝRTÝLMEMÝÞ', 'BELÝRTÝLMEMÝÞ', ('BELÝRTÝLMEMÝÞ'), ('BELÝRTÝLMEMÝÞ'), ('BELÝRTÝLMEMÝÞ') ) ;
#60 = DIRECTION ( 'NONE',  ( -0.0000000000000000000, -1.000000000000000000, -0.0000000000000000000 ) ) ;
#61 = DIRECTION ( 'NONE',  ( -0.0000000000000000000, -1.000000000000000000, -0.0000000000000000000 ) ) ;
#62 = CARTESIAN_POINT ( 'NONE',  ( 0.0000000000000000000, 54.99999999999999289, 0.0000000000000000000 ) ) ;
#63 = TOROIDAL_SURFACE ( 'NONE', #234, -0.8758589564495048441, 75.00000000000000000 ) ;
#64 = DIRECTION ( 'NONE',  ( -0.0000000000000000000, -1.000000000000000000, -0.0000000000000000000 ) ) ;
#65 = ADVANCED_FACE ( 'NONE', ( #84 ), #178, .F. ) ;
#66 = CYLINDRICAL_SURFACE ( 'NONE', #285, 24.99999999999999289 ) ;
#67 = FACE_OUTER_BOUND ( 'NONE', #146, .T. ) ;
#68 = TOROIDAL_SURFACE ( 'NONE', #236, -0.8758589564495048441, 70.40033417660404780 ) ;
#69 = DIRECTION ( 'NONE',  ( 0.0000000000000000000, 0.0000000000000000000, -1.000000000000000000 ) ) ;
#70 = MANIFOLD_SOLID_BREP ( 'Döndür1', #266 ) ;
#71 = ORGANIZATION ( 'BELÝRTÝLMEMÝÞ', 'BELÝRTÝLMEMÝÞ', '' ) ;
#72 = EDGE_CURVE ( 'NONE', #263, #16, #158, .T. ) ;
#73 = ORIENTED_EDGE ( 'NONE', *, *, #126, .F. ) ;
#74 = COORDINATED_UNIVERSAL_TIME_OFFSET ( 3, 0, .AHEAD. ) ;
#75 = AXIS2_PLACEMENT_3D ( 'NONE', #294, #89, #182 ) ;
#76 = ORIENTED_EDGE ( 'NONE', *, *, #72, .F. ) ;
#77 = ADVANCED_FACE ( 'NONE', ( #226 ), #68, .F. ) ;
#78 = COORDINATED_UNIVERSAL_TIME_OFFSET ( 3, 0, .AHEAD. ) ;
#79 = EDGE_LOOP ( 'NONE', ( #166, #258, #50, #142 ) ) ;
#80 = DATE_AND_TIME ( #288, #267 ) ;
#81 = FACE_OUTER_BOUND ( 'NONE', #30, .T. ) ;
#82 = VECTOR ( 'NONE', #60, 1000.000000000000000 ) ;
#83 = CARTESIAN_POINT ( 'NONE',  ( 2.498279470260600730E-15, 54.99999999999999289, 20.40000000000000213 ) ) ;
#84 = FACE_OUTER_BOUND ( 'NONE', #102, .T. ) ;
#85 = DIRECTION ( 'NONE',  ( 0.0000000000000000000, 0.0000000000000000000, -1.000000000000000000 ) ) ;
#86 = DIRECTION ( 'NONE',  ( -0.0000000000000000000, -1.000000000000000000, -0.0000000000000000000 ) ) ;
#87 = EDGE_CURVE ( 'NONE', #123, #16, #107, .T. ) ;
#88 = AXIS2_PLACEMENT_3D ( 'NONE', #17, #114, #209 ) ;
#89 = DIRECTION ( 'NONE',  ( -0.0000000000000000000, -1.000000000000000000, -0.0000000000000000000 ) ) ;
#90 = CARTESIAN_POINT ( 'NONE',  ( 0.0000000000000000000, -12.10845608299144693, 0.0000000000000000000 ) ) ;
#91 = CARTESIAN_POINT ( 'NONE',  ( 3.061616997868381859E-15, 58.28642954988625746, 24.99999999999998934 ) ) ;
#92 = CIRCLE ( 'NONE', #259, 25.00000000000000000 ) ;
#93 = PRODUCT_DEFINITION_SHAPE ( 'NONE', 'NONE',  #197 ) ;
#94 = EDGE_CURVE ( 'NONE', #123, #35, #279, .T. ) ;
#95 = SECURITY_CLASSIFICATION ( '', '', #220 ) ;
#96 = PERSON_AND_ORGANIZATION ( #59, #71 ) ;
#97 = ORIENTED_EDGE ( 'NONE', *, *, #53, .F. ) ;
#98 = PERSON_AND_ORGANIZATION ( #59, #71 ) ;
#99 = CIRCLE ( 'NONE', #274, 70.40033417660404780 ) ;
#100 = VERTEX_POINT ( 'NONE', #37 ) ;
#101 = PERSON_AND_ORGANIZATION_ROLE ( 'classification_officer' ) ;
#102 = EDGE_LOOP ( 'NONE', ( #237, #23, #215, #302 ) ) ;
#103 = CARTESIAN_POINT ( 'NONE',  ( 0.0000000000000000000, 0.0000000000000000000, 0.0000000000000000000 ) ) ;
#104 = ADVANCED_FACE ( 'NONE', ( #131 ), #227, .T. ) ;
#105 = VECTOR ( 'NONE', #272, 1000.000000000000000 ) ;
#106 = LINE ( 'NONE', #202, #117 ) ;
#107 = LINE ( 'NONE', #179, #105 ) ;
#108 = EDGE_CURVE ( 'NONE', #16, #263, #186, .T. ) ;
#109 = DIRECTION ( 'NONE',  ( -0.0000000000000000000, -1.000000000000000000, -0.0000000000000000000 ) ) ;
#110 = DIRECTION ( 'NONE',  ( -0.0000000000000000000, -1.000000000000000000, -0.0000000000000000000 ) ) ;
#111 = LOCAL_TIME ( 14, 41, 8.000000000000000000, #74 ) ;
#112 = FACE_OUTER_BOUND ( 'NONE', #218, .T. ) ;
#113 = DIRECTION ( 'NONE',  ( 0.0000000000000000000, 0.0000000000000000000, 1.000000000000000000 ) ) ;
#114 = DIRECTION ( 'NONE',  ( 1.000000000000000000, 0.0000000000000000000, -1.224646799147353207E-16 ) ) ;
#115 = CIRCLE ( 'NONE', #153, 75.00000000000000000 ) ;
#116 = EDGE_CURVE ( 'NONE', #242, #100, #92, .T. ) ;
#117 = VECTOR ( 'NONE', #291, 1000.000000000000000 ) ;
#118 = PERSON_AND_ORGANIZATION ( #59, #71 ) ;
#119 = EDGE_LOOP ( 'NONE', ( #5, #6, #8 ) ) ;
#120 = CALENDAR_DATE ( 2019, 16, 12 ) ;
#121 = ORIENTED_EDGE ( 'NONE', *, *, #116, .T. ) ;
#122 = PERSON_AND_ORGANIZATION_ROLE ( 'design_supplier' ) ;
#123 = VERTEX_POINT ( 'NONE', #251 ) ;
#124 = DATE_AND_TIME ( #31, #300 ) ;
#125 = LINE ( 'NONE', #223, #298 ) ;
#126 = EDGE_CURVE ( 'NONE', #13, #221, #128, .T. ) ;
#127 = CARTESIAN_POINT ( 'NONE',  ( 20.40000000000000213, 0.0000000000000000000, 0.0000000000000000000 ) ) ;
#128 = CIRCLE ( 'NONE', #297, 24.99999999999998934 ) ;
#129 = DIRECTION ( 'NONE',  ( 0.0000000000000000000, 0.0000000000000000000, -1.000000000000000000 ) ) ;
#130 = EDGE_CURVE ( 'NONE', #221, #13, #167, .T. ) ;
#131 = FACE_OUTER_BOUND ( 'NONE', #79, .T. ) ;
#132 = DIRECTION ( 'NONE',  ( -0.0000000000000000000, -1.000000000000000000, -0.0000000000000000000 ) ) ;
#133 = CARTESIAN_POINT ( 'NONE',  ( 0.0000000000000000000, -12.10845608299144693, 0.8758589564495048441 ) ) ;
#134 = APPROVAL_PERSON_ORGANIZATION ( #264, #268, #147 ) ;
#135 = DIRECTION ( 'NONE',  ( -0.0000000000000000000, -1.000000000000000000, -0.0000000000000000000 ) ) ;
#136 = DIRECTION ( 'NONE',  ( -1.224646799147353207E-16, 0.0000000000000000000, -1.000000000000000000 ) ) ;
#137 =( NAMED_UNIT ( * ) SI_UNIT ( $, .STERADIAN. ) SOLID_ANGLE_UNIT ( ) );
#138 = TOROIDAL_SURFACE ( 'NONE', #305, -0.8758589564495048441, 70.40033417660404780 ) ;
#139 = EDGE_CURVE ( 'NONE', #35, #123, #210, .T. ) ;
#140 = AXIS2_PLACEMENT_3D ( 'NONE', #62, #154, #249 ) ;
#141 = MECHANICAL_CONTEXT ( 'NONE', #271, 'mechanical' ) ;
#142 = ORIENTED_EDGE ( 'NONE', *, *, #40, .F. ) ;
#143 = PERSON_AND_ORGANIZATION ( #59, #71 ) ;
#144 = ORIENTED_EDGE ( 'NONE', *, *, #87, .T. ) ;
#145 = PERSON_AND_ORGANIZATION ( #59, #71 ) ;
#146 = EDGE_LOOP ( 'NONE', ( #196, #287, #20 ) ) ;
#147 = APPROVAL_ROLE ( '' ) ;
#148 = ADVANCED_FACE ( 'NONE', ( #276 ), #66, .T. ) ;
#149 = LOCAL_TIME ( 14, 41, 8.000000000000000000, #25 ) ;
#150 = DIRECTION ( 'NONE',  ( 0.0000000000000000000, 0.0000000000000000000, -1.000000000000000000 ) ) ;
#151 = FACE_OUTER_BOUND ( 'NONE', #307, .T. ) ;
#152 = DIRECTION ( 'NONE',  ( 0.0000000000000000000, 0.0000000000000000000, -1.000000000000000000 ) ) ;
#153 = AXIS2_PLACEMENT_3D ( 'NONE', #133, #231, #12 ) ;
#154 = DIRECTION ( 'NONE',  ( -0.0000000000000000000, -1.000000000000000000, -0.0000000000000000000 ) ) ;
#155 = DIRECTION ( 'NONE',  ( 0.0000000000000000000, 0.0000000000000000000, -1.000000000000000000 ) ) ;
#156 = CARTESIAN_POINT ( 'NONE',  ( 0.0000000000000000000, 0.0000000000000000000, 0.0000000000000000000 ) ) ;
#157 = EDGE_CURVE ( 'NONE', #10, #13, #115, .T. ) ;
#158 = CIRCLE ( 'NONE', #201, 20.40000000000000213 ) ;
#159 = DESIGN_CONTEXT ( 'detailed design', #283, 'design' ) ;
#160 = CARTESIAN_POINT ( 'NONE',  ( 3.061616997868383043E-15, 0.0000000000000000000, 25.00000000000000000 ) ) ;
#161 =( NAMED_UNIT ( * ) PLANE_ANGLE_UNIT ( ) SI_UNIT ( $, .RADIAN. ) );
#162 = PRODUCT ( 'End Cap SDR11_001 117 0140 0050', 'End Cap SDR11_001 117 0140 0050', '', ( #141 ) ) ;
#163 = ADVANCED_FACE ( 'NONE', ( #112 ), #19, .T. ) ;
#164 =( GEOMETRIC_REPRESENTATION_CONTEXT ( 3 ) GLOBAL_UNCERTAINTY_ASSIGNED_CONTEXT ( ( #278 ) ) GLOBAL_UNIT_ASSIGNED_CONTEXT ( ( #187, #161, #137 ) ) REPRESENTATION_CONTEXT ( 'NONE', 'WORKASPACE' ) );
#165 = CARTESIAN_POINT ( 'NONE',  ( 0.0000000000000000000, 0.0000000000000000000, 0.0000000000000000000 ) ) ;
#166 = ORIENTED_EDGE ( 'NONE', *, *, #126, .T. ) ;
#167 = CIRCLE ( 'NONE', #36, 24.99999999999998934 ) ;
#168 = CALENDAR_DATE ( 2019, 16, 12 ) ;
#169 = ORIENTED_EDGE ( 'NONE', *, *, #18, .F. ) ;
#170 = CALENDAR_DATE ( 2019, 16, 12 ) ;
#171 = VERTEX_POINT ( 'NONE', #295 ) ;
#172 = ADVANCED_FACE ( 'NONE', ( #67 ), #63, .T. ) ;
#173 = DATE_TIME_ROLE ( 'classification_date' ) ;
#174 = CYLINDRICAL_SURFACE ( 'NONE', #175, 20.40000000000000213 ) ;
#175 = AXIS2_PLACEMENT_3D ( 'NONE', #265, #57, #150 ) ;
#176 = CC_DESIGN_APPROVAL ( #268, ( #95 ) ) ;
#177 = LINE ( 'NONE', #269, #82 ) ;
#178 = CYLINDRICAL_SURFACE ( 'NONE', #21, 20.40000000000000213 ) ;
#179 = CARTESIAN_POINT ( 'NONE',  ( 0.0000000000000000000, 0.0000000000000000000, -20.40000000000000213 ) ) ;
#180 = CIRCLE ( 'NONE', #46, 75.00000000000000000 ) ;
#181 = DIRECTION ( 'NONE',  ( 0.0000000000000000000, 0.0000000000000000000, -1.000000000000000000 ) ) ;
#182 = DIRECTION ( 'NONE',  ( 0.0000000000000000000, 0.0000000000000000000, -1.000000000000000000 ) ) ;
#183 = EDGE_CURVE ( 'NONE', #171, #123, #99, .T. ) ;
#184 = DIRECTION ( 'NONE',  ( -0.0000000000000000000, -1.000000000000000000, -0.0000000000000000000 ) ) ;
#185 = CARTESIAN_POINT ( 'NONE',  ( 0.0000000000000000000, -12.10845608299144693, 0.0000000000000000000 ) ) ;
#186 = CIRCLE ( 'NONE', #225, 20.40000000000000213 ) ;
#187 =( LENGTH_UNIT ( ) NAMED_UNIT ( * ) SI_UNIT ( .MILLI., .METRE. ) );
#188 = CC_DESIGN_PERSON_AND_ORGANIZATION_ASSIGNMENT ( #118, #214, ( #162 ) ) ;
#189 = APPROVAL_PERSON_ORGANIZATION ( #98, #228, #286 ) ;
#190 = ADVANCED_FACE ( 'NONE', ( #208 ), #138, .F. ) ;
#191 = APPROVAL_STATUS ( 'not_yet_approved' ) ;
#192 = ORIENTED_EDGE ( 'NONE', *, *, #247, .T. ) ;
#193 = ORIENTED_EDGE ( 'NONE', *, *, #94, .F. ) ;
#194 = AXIS2_PLACEMENT_3D ( 'NONE', #90, #184, #277 ) ;
#195 = APPROVAL_STATUS ( 'not_yet_approved' ) ;
#196 = ORIENTED_EDGE ( 'NONE', *, *, #247, .F. ) ;
#197 = PRODUCT_DEFINITION ( 'BÝLÝNMEYEN', '', #11, #159 ) ;
#198 = COORDINATED_UNIVERSAL_TIME_OFFSET ( 3, 0, .AHEAD. ) ;
#199 = CARTESIAN_POINT ( 'NONE',  ( -1.051676107310939301E-14, 62.88642954988625178, 0.0000000000000000000 ) ) ;
#200 = DIRECTION ( 'NONE',  ( -0.0000000000000000000, -1.000000000000000000, -0.0000000000000000000 ) ) ;
#201 = AXIS2_PLACEMENT_3D ( 'NONE', #248, #34, #129 ) ;
#202 = CARTESIAN_POINT ( 'NONE',  ( 2.498279470260600730E-15, 0.0000000000000000000, 20.40000000000000213 ) ) ;
#203 = CARTESIAN_POINT ( 'NONE',  ( 0.0000000000000000000, -12.10845608299144693, 0.0000000000000000000 ) ) ;
#204 = DIRECTION ( 'NONE',  ( 0.0000000000000000000, 0.0000000000000000000, -1.000000000000000000 ) ) ;
#205 = AXIS2_PLACEMENT_3D ( 'NONE', #165, #257, #48 ) ;
#206 = DIRECTION ( 'NONE',  ( 0.0000000000000000000, 0.0000000000000000000, -1.000000000000000000 ) ) ;
#207 = APPROVAL ( #191, 'BELÝRTÝLMEMÝÞ' ) ;
#208 = FACE_OUTER_BOUND ( 'NONE', #55, .T. ) ;
#209 = DIRECTION ( 'NONE',  ( -1.224646799147353207E-16, 0.0000000000000000000, -1.000000000000000000 ) ) ;
#210 = CIRCLE ( 'NONE', #75, 20.40000000000000213 ) ;
#211 = APPLICATION_PROTOCOL_DEFINITION ( 'international standard', 'config_control_design', 1994, #271 ) ;
#212 = AXIS2_PLACEMENT_3D ( 'NONE', #103, #200, #290 ) ;
#213 = CC_DESIGN_PERSON_AND_ORGANIZATION_ASSIGNMENT ( #143, #239, ( #197 ) ) ;
#214 = PERSON_AND_ORGANIZATION_ROLE ( 'design_owner' ) ;
#215 = ORIENTED_EDGE ( 'NONE', *, *, #72, .T. ) ;
#216 = DATE_AND_TIME ( #120, #149 ) ;
#217 = CC_DESIGN_DATE_AND_TIME_ASSIGNMENT ( #216, #303, ( #197 ) ) ;
#218 = EDGE_LOOP ( 'NONE', ( #3, #192, #73 ) ) ;
#219 = CIRCLE ( 'NONE', #88, 70.40033417660404780 ) ;
#220 = SECURITY_CLASSIFICATION_LEVEL ( 'unclassified' ) ;
#221 = VERTEX_POINT ( 'NONE', #91 ) ;
#222 = APPROVAL_DATE_TIME ( #124, #268 ) ;
#223 = CARTESIAN_POINT ( 'NONE',  ( 3.061616997868382254E-15, 0.0000000000000000000, 24.99999999999999289 ) ) ;
#224 = DIRECTION ( 'NONE',  ( 0.0000000000000000000, -1.000000000000000000, -0.0000000000000000000 ) ) ;
#225 = AXIS2_PLACEMENT_3D ( 'NONE', #293, #86, #181 ) ;
#226 = FACE_OUTER_BOUND ( 'NONE', #119, .T. ) ;
#227 = CYLINDRICAL_SURFACE ( 'NONE', #49, 24.99999999999999289 ) ;
#228 = APPROVAL ( #195, 'BELÝRTÝLMEMÝÞ' ) ;
#229 = DIRECTION ( 'NONE',  ( 0.0000000000000000000, 0.0000000000000000000, -1.000000000000000000 ) ) ;
#230 = CC_DESIGN_APPROVAL ( #228, ( #11 ) ) ;
#231 = DIRECTION ( 'NONE',  ( -1.000000000000000000, 0.0000000000000000000, 0.0000000000000000000 ) ) ;
#232 = DIRECTION ( 'NONE',  ( 0.0000000000000000000, 0.0000000000000000000, -1.000000000000000000 ) ) ;
#233 = CARTESIAN_POINT ( 'NONE',  ( 2.498279470260600730E-15, 0.0000000000000000000, 20.40000000000000213 ) ) ;
#234 = AXIS2_PLACEMENT_3D ( 'NONE', #44, #135, #232 ) ;
#235 = CC_DESIGN_PERSON_AND_ORGANIZATION_ASSIGNMENT ( #145, #241, ( #11 ) ) ;
#236 = AXIS2_PLACEMENT_3D ( 'NONE', #203, #292, #85 ) ;
#237 = ORIENTED_EDGE ( 'NONE', *, *, #139, .F. ) ;
#238 = CC_DESIGN_PERSON_AND_ORGANIZATION_ASSIGNMENT ( #28, #122, ( #11 ) ) ;
#239 = PERSON_AND_ORGANIZATION_ROLE ( 'creator' ) ;
#240 = ORIENTED_EDGE ( 'NONE', *, *, #108, .T. ) ;
#241 = PERSON_AND_ORGANIZATION_ROLE ( 'creator' ) ;
#242 = VERTEX_POINT ( 'NONE', #160 ) ;
#243 = APPROVAL_PERSON_ORGANIZATION ( #96, #207, #282 ) ;
#244 = COORDINATED_UNIVERSAL_TIME_OFFSET ( 3, 0, .AHEAD. ) ;
#245 = CARTESIAN_POINT ( 'NONE',  ( 0.0000000000000000000, 0.0000000000000000000, -20.40000000000000213 ) ) ;
#246 = FACE_BOUND ( 'NONE', #38, .T. ) ;
#247 = EDGE_CURVE ( 'NONE', #10, #221, #180, .T. ) ;
#248 = CARTESIAN_POINT ( 'NONE',  ( 0.0000000000000000000, 0.0000000000000000000, 0.0000000000000000000 ) ) ;
#249 = DIRECTION ( 'NONE',  ( 0.0000000000000000000, 0.0000000000000000000, -1.000000000000000000 ) ) ;
#250 = CC_DESIGN_PERSON_AND_ORGANIZATION_ASSIGNMENT ( #306, #101, ( #95 ) ) ;
#251 = CARTESIAN_POINT ( 'NONE',  ( 0.0000000000000000000, 54.99999999999999289, -20.40000000000000213 ) ) ;
#252 = DIRECTION ( 'NONE',  ( -0.0000000000000000000, -1.000000000000000000, -0.0000000000000000000 ) ) ;
#253 = AXIS2_PLACEMENT_3D ( 'NONE', #127, #224, #4 ) ;
#254 = CARTESIAN_POINT ( 'NONE',  ( 0.0000000000000000000, -12.10845608299144693, 0.8758589564495048441 ) ) ;
#255 = CARTESIAN_POINT ( 'NONE',  ( -1.072617867520427186E-16, -12.10845608299144693, -0.8758589564495048441 ) ) ;
#256 = CC_DESIGN_DATE_AND_TIME_ASSIGNMENT ( #80, #173, ( #95 ) ) ;
#257 = DIRECTION ( 'NONE',  ( 0.0000000000000000000, 0.0000000000000000000, 1.000000000000000000 ) ) ;
#258 = ORIENTED_EDGE ( 'NONE', *, *, #18, .T. ) ;
#259 = AXIS2_PLACEMENT_3D ( 'NONE', #275, #64, #155 ) ;
#260 = DATE_AND_TIME ( #168, #111 ) ;
#261 = ORIENTED_EDGE ( 'NONE', *, *, #130, .T. ) ;
#262 = DATE_AND_TIME ( #170, #58 ) ;
#263 = VERTEX_POINT ( 'NONE', #233 ) ;
#264 = PERSON_AND_ORGANIZATION ( #59, #71 ) ;
#265 = CARTESIAN_POINT ( 'NONE',  ( 0.0000000000000000000, 0.0000000000000000000, 0.0000000000000000000 ) ) ;
#266 = CLOSED_SHELL ( 'NONE', ( #77, #163, #104, #65, #14, #47, #148, #172, #190 ) ) ;
#267 = LOCAL_TIME ( 14, 41, 8.000000000000000000, #198 ) ;
#268 = APPROVAL ( #56, 'BELÝRTÝLMEMÝÞ' ) ;
#269 = CARTESIAN_POINT ( 'NONE',  ( 0.0000000000000000000, 0.0000000000000000000, -24.99999999999999289 ) ) ;
#270 = CARTESIAN_POINT ( 'NONE',  ( 0.0000000000000000000, 0.0000000000000000000, 0.0000000000000000000 ) ) ;
#271 = APPLICATION_CONTEXT ( 'configuration controlled 3d designs of mechanical parts and assemblies' ) ;
#272 = DIRECTION ( 'NONE',  ( -0.0000000000000000000, -1.000000000000000000, -0.0000000000000000000 ) ) ;
#273 = PRODUCT_RELATED_PRODUCT_CATEGORY ( 'detail', '', ( #162 ) ) ;
#274 = AXIS2_PLACEMENT_3D ( 'NONE', #254, #15, #113 ) ;
#275 = CARTESIAN_POINT ( 'NONE',  ( 0.0000000000000000000, 0.0000000000000000000, 0.0000000000000000000 ) ) ;
#276 = FACE_OUTER_BOUND ( 'NONE', #33, .T. ) ;
#277 = DIRECTION ( 'NONE',  ( 0.0000000000000000000, 0.0000000000000000000, -1.000000000000000000 ) ) ;
#278 = UNCERTAINTY_MEASURE_WITH_UNIT (LENGTH_MEASURE( 1.000000000000000082E-05 ), #187, 'distance_accuracy_value', 'NONE');
#279 = CIRCLE ( 'NONE', #140, 20.40000000000000213 ) ;
#280 = DIRECTION ( 'NONE',  ( -0.0000000000000000000, -1.000000000000000000, -0.0000000000000000000 ) ) ;
#281 = CC_DESIGN_APPROVAL ( #207, ( #197 ) ) ;
#282 = APPROVAL_ROLE ( '' ) ;
#283 = APPLICATION_CONTEXT ( 'configuration controlled 3d designs of mechanical parts and assemblies' ) ;
#284 = ORIENTED_EDGE ( 'NONE', *, *, #108, .F. ) ;
#285 = AXIS2_PLACEMENT_3D ( 'NONE', #156, #252, #41 ) ;
#286 = APPROVAL_ROLE ( '' ) ;
#287 = ORIENTED_EDGE ( 'NONE', *, *, #157, .T. ) ;
#288 = CALENDAR_DATE ( 2019, 16, 12 ) ;
#289 = CARTESIAN_POINT ( 'NONE',  ( 0.0000000000000000000, 58.28642954988625746, -24.99999999999998934 ) ) ;
#290 = DIRECTION ( 'NONE',  ( 0.0000000000000000000, 0.0000000000000000000, -1.000000000000000000 ) ) ;
#291 = DIRECTION ( 'NONE',  ( -0.0000000000000000000, -1.000000000000000000, -0.0000000000000000000 ) ) ;
#292 = DIRECTION ( 'NONE',  ( -0.0000000000000000000, -1.000000000000000000, -0.0000000000000000000 ) ) ;
#293 = CARTESIAN_POINT ( 'NONE',  ( 0.0000000000000000000, 0.0000000000000000000, 0.0000000000000000000 ) ) ;
#294 = CARTESIAN_POINT ( 'NONE',  ( 0.0000000000000000000, 54.99999999999999289, 0.0000000000000000000 ) ) ;
#295 = CARTESIAN_POINT ( 'NONE',  ( -1.119692399538608410E-14, 58.28642954988625746, 0.0000000000000000000 ) ) ;
#296 = EDGE_CURVE ( 'NONE', #171, #35, #219, .T. ) ;
#297 = AXIS2_PLACEMENT_3D ( 'NONE', #39, #132, #229 ) ;
#298 = VECTOR ( 'NONE', #2, 1000.000000000000000 ) ;
#299 = ADVANCED_BREP_SHAPE_REPRESENTATION ( 'End Cap SDR11_001 117 0140 0050', ( #70, #205 ), #164 ) ;
#300 = LOCAL_TIME ( 14, 41, 8.000000000000000000, #244 ) ;
#301 = APPLICATION_PROTOCOL_DEFINITION ( 'international standard', 'config_control_design', 1994, #283 ) ;
#302 = ORIENTED_EDGE ( 'NONE', *, *, #87, .F. ) ;
#303 = DATE_TIME_ROLE ( 'creation_date' ) ;
#304 = ORIENTED_EDGE ( 'NONE', *, *, #116, .F. ) ;
#305 = AXIS2_PLACEMENT_3D ( 'NONE', #185, #280, #69 ) ;
#306 = PERSON_AND_ORGANIZATION ( #59, #71 ) ;
#307 = EDGE_LOOP ( 'NONE', ( #26, #121 ) ) ;
ENDSEC;
END-ISO-10303-21;
